ISO-10303-21;
HEADER;
FILE_DESCRIPTION (( 'STEP AP203' ),
    '1' );
FILE_NAME ('QB-CTZHWP-38.1-852-M.STEP',
    '2020-12-24T01:37:49',
    ( '' ),
    ( '' ),
    'SwSTEP 2.0',
    'SolidWorks 2020',
    '' );
FILE_SCHEMA (( 'CONFIG_CONTROL_DESIGN' ));
ENDSEC;

DATA;
#1 = DATE_AND_TIME ( #63, #42 ) ;
#2 = ADVANCED_FACE ( 'NONE', ( #134 ), #21, .T. ) ;
#3 = PERSON_AND_ORGANIZATION_ROLE ( 'creator' ) ;
#4 = FACE_OUTER_BOUND ( 'NONE', #154, .T. ) ;
#5 = ORIENTED_EDGE ( 'NONE', *, *, #110, .F. ) ;
#6 = CIRCLE ( 'NONE', #88, 25.39999999999999858 ) ;
#7 = DIRECTION ( 'NONE',  ( 0.000000000000000000, 0.000000000000000000, -1.000000000000000000 ) ) ;
#8 = CARTESIAN_POINT ( 'NONE',  ( -1.614212418857619014, 0.000000000000000000, 0.000000000000000000 ) ) ;
#9 = PLANE ( 'NONE',  #68 ) ;
#10 = PRODUCT_DEFINITION_FORMATION_WITH_SPECIFIED_SOURCE ( 'ANY', '', #171, .NOT_KNOWN. ) ;
#11 = DATE_AND_TIME ( #124, #157 ) ;
#12 =( LENGTH_UNIT ( ) NAMED_UNIT ( * ) SI_UNIT ( .MILLI., .METRE. ) );
#13 = PERSON_AND_ORGANIZATION ( #175, #37 ) ;
#14 = AXIS2_PLACEMENT_3D ( 'NONE', #47, #23, #24 ) ;
#15 = ADVANCED_FACE ( 'NONE', ( #4 ), #77, .T. ) ;
#16 = PERSON_AND_ORGANIZATION_ROLE ( 'classification_officer' ) ;
#17 = DESIGN_CONTEXT ( 'detailed design', #174, 'design' ) ;
#18 = DIRECTION ( 'NONE',  ( -1.000000000000000000, -0.000000000000000000, -0.000000000000000000 ) ) ;
#19 = ORIENTED_EDGE ( 'NONE', *, *, #156, .F. ) ;
#20 = ORIENTED_EDGE ( 'NONE', *, *, #75, .F. ) ;
#21 = CYLINDRICAL_SURFACE ( 'NONE', #143, 25.39999999999999858 ) ;
#22 = CARTESIAN_POINT ( 'NONE',  ( -3.000000000000000000, 0.000000000000000000, 0.000000000000000000 ) ) ;
#23 = DIRECTION ( 'NONE',  ( 0.000000000000000000, 0.000000000000000000, 1.000000000000000000 ) ) ;
#24 = DIRECTION ( 'NONE',  ( 1.000000000000000000, 0.000000000000000000, 0.000000000000000000 ) ) ;
#25 = VECTOR ( 'NONE', #41, 1000.000000000000000 ) ;
#26 = ADVANCED_FACE ( 'NONE', ( #167 ), #9, .F. ) ;
#27 = CALENDAR_DATE ( 2020, 24, 12 ) ;
#28 = PERSON_AND_ORGANIZATION ( #175, #37 ) ;
#29 = CARTESIAN_POINT ( 'NONE',  ( -3.000000000000000000, 0.000000000000000000, 0.000000000000000000 ) ) ;
#30 = VERTEX_POINT ( 'NONE', #66 ) ;
#31 = CARTESIAN_POINT ( 'NONE',  ( -3.000000000000001332, 19.05000000000000071, 0.000000000000000000 ) ) ;
#32 = FACE_OUTER_BOUND ( 'NONE', #45, .T. ) ;
#33 = ADVANCED_BREP_SHAPE_REPRESENTATION ( 'QB-CTZHWP-38.1-852-M', ( #60, #14 ), #114 ) ;
#34 = APPROVAL_ROLE ( '' ) ;
#35 = CALENDAR_DATE ( 2020, 24, 12 ) ;
#36 = PERSON_AND_ORGANIZATION_ROLE ( 'creator' ) ;
#37 = ORGANIZATION ( 'UNSPECIFIED', 'UNSPECIFIED', '' ) ;
#38 = CC_DESIGN_DATE_AND_TIME_ASSIGNMENT ( #1, #128, ( #101 ) ) ;
#39 = DATE_AND_TIME ( #118, #125 ) ;
#40 = PERSON_AND_ORGANIZATION ( #175, #37 ) ;
#41 = DIRECTION ( 'NONE',  ( -1.000000000000000000, -0.000000000000000000, -0.000000000000000000 ) ) ;
#42 = LOCAL_TIME ( 9, 37, 49.00000000000000000, #161 ) ;
#43 = ORIENTED_EDGE ( 'NONE', *, *, #110, .T. ) ;
#44 = DIRECTION ( 'NONE',  ( -1.000000000000000000, -0.000000000000000000, -0.000000000000000000 ) ) ;
#45 = EDGE_LOOP ( 'NONE', ( #76, #164 ) ) ;
#46 = DATE_TIME_ROLE ( 'creation_date' ) ;
#47 = CARTESIAN_POINT ( 'NONE',  ( 0.000000000000000000, 0.000000000000000000, 0.000000000000000000 ) ) ;
#48 = AXIS2_PLACEMENT_3D ( 'NONE', #123, #18, #121 ) ;
#49 = APPROVAL_ROLE ( '' ) ;
#50 = EDGE_CURVE ( 'NONE', #53, #30, #104, .T. ) ;
#51 = VERTEX_POINT ( 'NONE', #108 ) ;
#52 = AXIS2_PLACEMENT_3D ( 'NONE', #168, #148, #122 ) ;
#53 = VERTEX_POINT ( 'NONE', #83 ) ;
#54 = APPROVAL_PERSON_ORGANIZATION ( #159, #82, #49 ) ;
#55 = DIRECTION ( 'NONE',  ( -0.000000000000000000, 0.000000000000000000, 1.000000000000000000 ) ) ;
#56 = DIRECTION ( 'NONE',  ( 0.000000000000000000, 0.000000000000000000, 1.000000000000000000 ) ) ;
#57 = DIRECTION ( 'NONE',  ( 1.000000000000000000, 0.000000000000000000, 0.000000000000000000 ) ) ;
#58 = DIRECTION ( 'NONE',  ( -1.000000000000000000, -0.000000000000000000, -0.000000000000000000 ) ) ;
#59 = APPLICATION_PROTOCOL_DEFINITION ( 'international standard', 'config_control_design', 1994, #142 ) ;
#60 = MANIFOLD_SOLID_BREP ( 'Ðý×', #155 ) ;
#61 = LOCAL_TIME ( 9, 37, 49.00000000000000000, #84 ) ;
#62 = EDGE_CURVE ( 'NONE', #30, #53, #126, .T. ) ;
#63 = CALENDAR_DATE ( 2020, 24, 12 ) ;
#64 = ADVANCED_FACE ( 'NONE', ( #32 ), #103, .F. ) ;
#65 = PERSON_AND_ORGANIZATION ( #175, #37 ) ;
#66 = CARTESIAN_POINT ( 'NONE',  ( 3.000000000000000000, 0.000000000000000000, 25.39999999999999858 ) ) ;
#67 = DIRECTION ( 'NONE',  ( 0.000000000000000000, 0.000000000000000000, 1.000000000000000000 ) ) ;
#68 = AXIS2_PLACEMENT_3D ( 'NONE', #31, #57, #7 ) ;
#69 = DIRECTION ( 'NONE',  ( 0.000000000000000000, 0.000000000000000000, 1.000000000000000000 ) ) ;
#70 = PERSON_AND_ORGANIZATION ( #175, #37 ) ;
#71 = VECTOR ( 'NONE', #165, 1000.000000000000000 ) ;
#72 = AXIS2_PLACEMENT_3D ( 'NONE', #29, #58, #109 ) ;
#73 = UNCERTAINTY_MEASURE_WITH_UNIT (LENGTH_MEASURE( 1.000000000000000082E-05 ), #12, 'distance_accuracy_value', 'NONE');
#74 = SECURITY_CLASSIFICATION_LEVEL ( 'unclassified' ) ;
#75 = EDGE_CURVE ( 'NONE', #30, #92, #144, .T. ) ;
#76 = ORIENTED_EDGE ( 'NONE', *, *, #62, .F. ) ;
#77 = CYLINDRICAL_SURFACE ( 'NONE', #48, 25.39999999999999858 ) ;
#78 = APPROVAL ( #172, 'UNSPECIFIED' ) ;
#79 = CARTESIAN_POINT ( 'NONE',  ( 3.000000000000000000, 0.000000000000000000, 0.000000000000000000 ) ) ;
#80 = CC_DESIGN_APPROVAL ( #166, ( #10 ) ) ;
#81 = PRODUCT_DEFINITION_SHAPE ( 'NONE', 'NONE',  #140 ) ;
#82 = APPROVAL ( #129, 'UNSPECIFIED' ) ;
#83 = CARTESIAN_POINT ( 'NONE',  ( 3.000000000000000000, 3.110602869834276865E-15, -25.39999999999999858 ) ) ;
#84 = COORDINATED_UNIVERSAL_TIME_OFFSET ( 8, 0, .AHEAD. ) ;
#85 = DATE_AND_TIME ( #35, #163 ) ;
#86 = COORDINATED_UNIVERSAL_TIME_OFFSET ( 8, 0, .AHEAD. ) ;
#87 = CC_DESIGN_PERSON_AND_ORGANIZATION_ASSIGNMENT ( #13, #111, ( #171 ) ) ;
#88 = AXIS2_PLACEMENT_3D ( 'NONE', #22, #44, #69 ) ;
#89 = DIRECTION ( 'NONE',  ( -1.000000000000000000, -0.000000000000000000, -0.000000000000000000 ) ) ;
#90 = EDGE_LOOP ( 'NONE', ( #145, #43 ) ) ;
#91 = APPROVAL_DATE_TIME ( #39, #82 ) ;
#92 = VERTEX_POINT ( 'NONE', #130 ) ;
#93 = CC_DESIGN_PERSON_AND_ORGANIZATION_ASSIGNMENT ( #65, #120, ( #10 ) ) ;
#94 = ORIENTED_EDGE ( 'NONE', *, *, #141, .F. ) ;
#95 = PERSON_AND_ORGANIZATION ( #175, #37 ) ;
#96 = APPROVAL_ROLE ( '' ) ;
#97 = PRODUCT_RELATED_PRODUCT_CATEGORY ( 'detail', '', ( #171 ) ) ;
#98 = APPROVAL_DATE_TIME ( #85, #78 ) ;
#99 = CC_DESIGN_APPROVAL ( #82, ( #101 ) ) ;
#100 = CC_DESIGN_PERSON_AND_ORGANIZATION_ASSIGNMENT ( #28, #16, ( #101 ) ) ;
#101 = SECURITY_CLASSIFICATION ( '', '', #74 ) ;
#102 = SHAPE_DEFINITION_REPRESENTATION ( #81, #33 ) ;
#103 = PLANE ( 'NONE',  #150 ) ;
#104 = CIRCLE ( 'NONE', #136, 25.39999999999999858 ) ;
#105 = ORIENTED_EDGE ( 'NONE', *, *, #141, .T. ) ;
#106 = CARTESIAN_POINT ( 'NONE',  ( 3.000000000000001332, 19.05000000000000071, 0.000000000000000000 ) ) ;
#107 = DIRECTION ( 'NONE',  ( -1.000000000000000000, -0.000000000000000000, -0.000000000000000000 ) ) ;
#108 = CARTESIAN_POINT ( 'NONE',  ( -3.000000000000000000, 3.110602869834276865E-15, -25.39999999999999858 ) ) ;
#109 = DIRECTION ( 'NONE',  ( 0.000000000000000000, 0.000000000000000000, 1.000000000000000000 ) ) ;
#110 = EDGE_CURVE ( 'NONE', #51, #92, #6, .T. ) ;
#111 = PERSON_AND_ORGANIZATION_ROLE ( 'design_owner' ) ;
#112 =( NAMED_UNIT ( * ) SI_UNIT ( $, .STERADIAN. ) SOLID_ANGLE_UNIT ( ) );
#113 = CIRCLE ( 'NONE', #72, 25.39999999999999858 ) ;
#114 =( GEOMETRIC_REPRESENTATION_CONTEXT ( 3 ) GLOBAL_UNCERTAINTY_ASSIGNED_CONTEXT ( ( #73 ) ) GLOBAL_UNIT_ASSIGNED_CONTEXT ( ( #12, #139, #112 ) ) REPRESENTATION_CONTEXT ( 'NONE', 'WORKASPACE' ) );
#115 = APPROVAL_DATE_TIME ( #116, #166 ) ;
#116 = DATE_AND_TIME ( #27, #61 ) ;
#117 = COORDINATED_UNIVERSAL_TIME_OFFSET ( 8, 0, .AHEAD. ) ;
#118 = CALENDAR_DATE ( 2020, 24, 12 ) ;
#119 = CARTESIAN_POINT ( 'NONE',  ( -1.614212418857619014, 3.110602869834276865E-15, -25.39999999999999858 ) ) ;
#120 = PERSON_AND_ORGANIZATION_ROLE ( 'design_supplier' ) ;
#121 = DIRECTION ( 'NONE',  ( 0.000000000000000000, 0.000000000000000000, 1.000000000000000000 ) ) ;
#122 = DIRECTION ( 'NONE',  ( 0.000000000000000000, 0.000000000000000000, 1.000000000000000000 ) ) ;
#123 = CARTESIAN_POINT ( 'NONE',  ( -1.614212418857619014, 0.000000000000000000, 0.000000000000000000 ) ) ;
#124 = CALENDAR_DATE ( 2020, 24, 12 ) ;
#125 = LOCAL_TIME ( 9, 37, 49.00000000000000000, #117 ) ;
#126 = CIRCLE ( 'NONE', #52, 25.39999999999999858 ) ;
#127 = CC_DESIGN_PERSON_AND_ORGANIZATION_ASSIGNMENT ( #40, #3, ( #10 ) ) ;
#128 = DATE_TIME_ROLE ( 'classification_date' ) ;
#129 = APPROVAL_STATUS ( 'not_yet_approved' ) ;
#130 = CARTESIAN_POINT ( 'NONE',  ( -3.000000000000000000, 0.000000000000000000, 25.39999999999999858 ) ) ;
#131 = ORIENTED_EDGE ( 'NONE', *, *, #75, .T. ) ;
#132 = EDGE_LOOP ( 'NONE', ( #147, #105, #19, #20 ) ) ;
#133 = CC_DESIGN_APPROVAL ( #78, ( #140 ) ) ;
#134 = FACE_OUTER_BOUND ( 'NONE', #132, .T. ) ;
#135 = DIRECTION ( 'NONE',  ( -1.000000000000000000, 0.000000000000000000, -0.000000000000000000 ) ) ;
#136 = AXIS2_PLACEMENT_3D ( 'NONE', #79, #89, #56 ) ;
#137 = MECHANICAL_CONTEXT ( 'NONE', #142, 'mechanical' ) ;
#138 = APPROVAL_PERSON_ORGANIZATION ( #70, #78, #96 ) ;
#139 =( NAMED_UNIT ( * ) PLANE_ANGLE_UNIT ( ) SI_UNIT ( $, .RADIAN. ) );
#140 = PRODUCT_DEFINITION ( 'UNKNOWN', '', #10, #17 ) ;
#141 = EDGE_CURVE ( 'NONE', #53, #51, #162, .T. ) ;
#142 = APPLICATION_CONTEXT ( 'configuration controlled 3d designs of mechanical parts and assemblies' ) ;
#143 = AXIS2_PLACEMENT_3D ( 'NONE', #8, #107, #67 ) ;
#144 = LINE ( 'NONE', #146, #71 ) ;
#145 = ORIENTED_EDGE ( 'NONE', *, *, #156, .T. ) ;
#146 = CARTESIAN_POINT ( 'NONE',  ( -1.614212418857619014, 0.000000000000000000, 25.39999999999999858 ) ) ;
#147 = ORIENTED_EDGE ( 'NONE', *, *, #62, .T. ) ;
#148 = DIRECTION ( 'NONE',  ( -1.000000000000000000, -0.000000000000000000, -0.000000000000000000 ) ) ;
#149 = APPROVAL_STATUS ( 'not_yet_approved' ) ;
#150 = AXIS2_PLACEMENT_3D ( 'NONE', #106, #135, #55 ) ;
#151 = CC_DESIGN_SECURITY_CLASSIFICATION ( #101, ( #10 ) ) ;
#152 = COORDINATED_UNIVERSAL_TIME_OFFSET ( 8, 0, .AHEAD. ) ;
#153 = PERSON_AND_ORGANIZATION ( #175, #37 ) ;
#154 = EDGE_LOOP ( 'NONE', ( #94, #173, #131, #5 ) ) ;
#155 = CLOSED_SHELL ( 'NONE', ( #2, #64, #15, #26 ) ) ;
#156 = EDGE_CURVE ( 'NONE', #92, #51, #113, .T. ) ;
#157 = LOCAL_TIME ( 9, 37, 49.00000000000000000, #86 ) ;
#158 = APPROVAL_PERSON_ORGANIZATION ( #95, #166, #34 ) ;
#159 = PERSON_AND_ORGANIZATION ( #175, #37 ) ;
#160 = CC_DESIGN_DATE_AND_TIME_ASSIGNMENT ( #11, #46, ( #140 ) ) ;
#161 = COORDINATED_UNIVERSAL_TIME_OFFSET ( 8, 0, .AHEAD. ) ;
#162 = LINE ( 'NONE', #119, #25 ) ;
#163 = LOCAL_TIME ( 9, 37, 49.00000000000000000, #152 ) ;
#164 = ORIENTED_EDGE ( 'NONE', *, *, #50, .F. ) ;
#165 = DIRECTION ( 'NONE',  ( -1.000000000000000000, -0.000000000000000000, -0.000000000000000000 ) ) ;
#166 = APPROVAL ( #149, 'UNSPECIFIED' ) ;
#167 = FACE_OUTER_BOUND ( 'NONE', #90, .T. ) ;
#168 = CARTESIAN_POINT ( 'NONE',  ( 3.000000000000000000, 0.000000000000000000, 0.000000000000000000 ) ) ;
#169 = CC_DESIGN_PERSON_AND_ORGANIZATION_ASSIGNMENT ( #153, #36, ( #140 ) ) ;
#170 = APPLICATION_PROTOCOL_DEFINITION ( 'international standard', 'config_control_design', 1994, #174 ) ;
#171 = PRODUCT ( 'QB-CTZHWP-38.1-852-M', 'QB-CTZHWP-38.1-852-M', '', ( #137 ) ) ;
#172 = APPROVAL_STATUS ( 'not_yet_approved' ) ;
#173 = ORIENTED_EDGE ( 'NONE', *, *, #50, .T. ) ;
#174 = APPLICATION_CONTEXT ( 'configuration controlled 3d designs of mechanical parts and assemblies' ) ;
#175 = PERSON ( 'UNSPECIFIED', 'UNSPECIFIED', 'UNSPECIFIED', ('UNSPECIFIED'), ('UNSPECIFIED'), ('UNSPECIFIED') ) ;
ENDSEC;
END-ISO-10303-21;
